Try

KEY: Try (Just a Little Bit Harder) by A Night with Janis Joplin is in the key of A Major. It should be played at a tempo of 112 BPM. This track was released in 1968.

  E7#9     A       Em     F      F#     G      Bb     B      C      D
|---------5-0------0------1------2------3------6------7------8------5-|
|--8------5-2------0------1------2------3------6------7------8------7-|
|--7------6-2------0------2------3------4------7------8------9------7-|
|--6------7-2------1------3------4------5------8------9------10-----7-|
|--7------7-0------1------3------4------5------8------9------10-----5-|
|---------5--------0------1------2------3------6------7------8--------|

BASS INTRO (Transcribed for Guitar)
|----------------|----------|----------|----------|
|----------------|----------|----------|----------|
|----------------|----------|----------|----------| Repeat until Verse
|----------------|----------|----------|----------|
|----------------|----------|----------|----------|
|--12\0--0-0-0-0-|--0-0-0-0-|--0-0-0-0-|--0-0-0-0-|

Try...(Try)           Try...(Try)           Try...(Try)Just a little bit
|----------|----------|----------|----------|----------|-----------|
|----------|----------|----------|----------|----------|-----------|
|----------|----------|----------|----------|----------|-----------|
|----------|----------|----------|----------|----------|-----------|
|----------|----------|----------|----------|----------|-----------|
|--0-0-0-0-|--0-0-0-0-|--0-0-0-0-|--0-0-0-0-|--0-0-0-0-|--0--------|

VERSE
A
Harder, so I can love, love, love him
         E7#9
I tell myself

Well I'm gonna try, yeah
                     A
Just a little bit harder, So I won't lose, lose, lose him
          E7#9
To nobody else

CHORUS
          A
Hey! Well I don't care, how long it's gonna take you now
    B          D             A(high)
But if it's a dream I don't want it, no I don't really want it
B           D            A(high)      A(low)
If it's a dream I don't want, nobody to wake me.

Pre-Chorus
   Em       F F#G          A       Bb B C
|--0------0-1-2-3-|-----|--5------5-6-7-8---|------|
|--0------0-1-2-3-|-----|--5------5-6-7-8---|------|
|--0------0-2-3-4-|-----|--6------6-7-8-9---|------| Repeat x2
|--2------2-3-4-5-|-----|--7------7-8-9-10--|------|
|--2------2-3-4-5-|-----|--7------7-8-9-10--|------|
|--0------0-1-2-3-|-----|--5------5-6-7-8---|------|

Rhythms are simple, varied. Listen to the song to get an idea, but its easy to
play your own rhythms. Solos in the key of E.